  0
SECTION
  2
HEADER
  9
$ACADVER
  1
AC1015
  9
$ACADMAINTVER
 70
     6
  9
$DWGCODEPAGE
  3
ANSI_1254
  9
$INSBASE
 10
0.0
 20
0.0
 30
0.0
  9
$EXTMIN
 10
0.0
 20
0.0
 30
0.0
  9
$EXTMAX
 10
279.4
 20
215.9
 30
0.0
  9
$LIMMIN
 10
0.0
 20
0.0
  9
$LIMMAX
 10
279.4
 20
215.9
  9
$ORTHOMODE
 70
     0
  9
$REGENMODE
 70
     1
  9
$FILLMODE
 70
     1
  9
$QTEXTMODE
 70
     0
  9
$MIRRTEXT
 70
     1
  9
$LTSCALE
 40
1.0
  9
$ATTMODE
 70
     1
  9
$TEXTSIZE
 40
3.5
  9
$TRACEWID
 40
1.0
  9
$TEXTSTYLE
  7
Standard
  9
$CLAYER
  8
0
  9
$CELTYPE
  6
ByLayer
  9
$CECOLOR
 62
   256
  9
$CELTSCALE
 40
1.0
  9
$DISPSILH
 70
     0
  9
$DIMSCALE
 40
1.0
  9
$DIMASZ
 40
3.5
  9
$DIMEXO
 40
1.0
  9
$DIMDLI
 40
3.75
  9
$DIMRND
 40
0.0
  9
$DIMDLE
 40
0.0
  9
$DIMEXE
 40
1.0
  9
$DIMTP
 40
0.0
  9
$DIMTM
 40
0.0
  9
$DIMTXT
 40
3.5
  9
$DIMCEN
 40
2.5
  9
$DIMTSZ
 40
0.0
  9
$DIMTOL
 70
     0
  9
$DIMLIM
 70
     0
  9
$DIMTIH
 70
     1
  9
$DIMTOH
 70
     1
  9
$DIMSE1
 70
     0
  9
$DIMSE2
 70
     0
  9
$DIMTAD
 70
     1
  9
$DIMZIN
 70
     0
  9
$DIMBLK
  1

  9
$DIMASO
 70
     1
  9
$DIMSHO
 70
     1
  9
$DIMPOST
  1

  9
$DIMAPOST
  1

  9
$DIMALT
 70
     0
  9
$DIMALTD
 70
     3
  9
$DIMALTF
 40
0.0393700787
  9
$DIMLFAC
 40
1.0
  9
$DIMTOFL
 70
     1
  9
$DIMTVP
 40
0.0
  9
$DIMTIX
 70
     0
  9
$DIMSOXD
 70
     0
  9
$DIMSAH
 70
     0
  9
$DIMBLK1
  1

  9
$DIMBLK2
  1

  9
$DIMSTYLE
  2
ISO-25
  9
$DIMCLRD
 70
     0
  9
$DIMCLRE
 70
     0
  9
$DIMCLRT
 70
     0
  9
$DIMTFAC
 40
1.0
  9
$DIMGAP
 40
1.524
  9
$DIMJUST
 70
     0
  9
$DIMSD1
 70
     0
  9
$DIMSD2
 70
     0
  9
$DIMTOLJ
 70
     0
  9
$DIMTZIN
 70
     0
  9
$DIMALTZ
 70
     0
  9
$DIMALTTZ
 70
     0
  9
$DIMUPT
 70
     0
  9
$DIMDEC
 70
     2
  9
$DIMTDEC
 70
     2
  9
$DIMALTU
 70
     2
  9
$DIMALTTD
 70
     3
  9
$DIMTXSTY
  7
Standard
  9
$DIMAUNIT
 70
     0
  9
$DIMADEC
 70
     2
  9
$DIMALTRND
 40
0.0
  9
$DIMAZIN
 70
     0
  9
$DIMDSEP
 70
    44
  9
$DIMATFIT
 70
     3
  9
$DIMFRAC
 70
     0
  9
$DIMLDRBLK
  1

  9
$DIMLUNIT
 70
     2
  9
$DIMLWD
 70
    -2
  9
$DIMLWE
 70
    -2
  9
$DIMTMOVE
 70
     0
  9
$LUNITS
 70
     2
  9
$LUPREC
 70
     2
  9
$SKETCHINC
 40
1.0
  9
$FILLETRAD
 40
10.0
  9
$AUNITS
 70
     0
  9
$AUPREC
 70
     2
  9
$MENU
  1
.
  9
$ELEVATION
 40
0.0
  9
$PELEVATION
 40
0.0
  9
$THICKNESS
 40
0.0
  9
$LIMCHECK
 70
     0
  9
$CHAMFERA
 40
0.0
  9
$CHAMFERB
 40
0.0
  9
$CHAMFERC
 40
0.0
  9
$CHAMFERD
 40
0.0
  9
$SKPOLY
 70
     0
  9
$TDCREATE
 40
2460731.65608434
  9
$TDUCREATE
 40
2460731.53108434
  9
$TDUPDATE
 40
2460731.656084525
  9
$TDUUPDATE
 40
2460731.531084525
  9
$TDINDWG
 40
0.0000000116
  9
$TDUSRTIMER
 40
0.0000000116
  9
$USRTIMER
 70
     1
  9
$ANGBASE
 50
0.0
  9
$ANGDIR
 70
     0
  9
$PDMODE
 70
     0
  9
$PDSIZE
 40
-1.0
  9
$PLINEWID
 40
0.0
  9
$SPLFRAME
 70
     0
  9
$SPLINETYPE
 70
     6
  9
$SPLINESEGS
 70
     8
  9
$HANDSEED
  5
F0
  9
$SURFTAB1
 70
     6
  9
$SURFTAB2
 70
     6
  9
$SURFTYPE
 70
     6
  9
$SURFU
 70
     6
  9
$SURFV
 70
     6
  9
$UCSBASE
  2

  9
$UCSNAME
  2

  9
$UCSORG
 10
0.0
 20
0.0
 30
0.0
  9
$UCSXDIR
 10
1.0
 20
0.0
 30
0.0
  9
$UCSYDIR
 10
0.0
 20
1.0
 30
0.0
  9
$UCSORTHOREF
  2

  9
$UCSORTHOVIEW
 70
     0
  9
$UCSORGTOP
 10
0.0
 20
0.0
 30
0.0
  9
$UCSORGBOTTOM
 10
0.0
 20
0.0
 30
0.0
  9
$UCSORGLEFT
 10
0.0
 20
0.0
 30
0.0
  9
$UCSORGRIGHT
 10
0.0
 20
0.0
 30
0.0
  9
$UCSORGFRONT
 10
0.0
 20
0.0
 30
0.0
  9
$UCSORGBACK
 10
0.0
 20
0.0
 30
0.0
  9
$PUCSBASE
  2

  9
$PUCSNAME
  2

  9
$PUCSORG
 10
0.0
 20
0.0
 30
0.0
  9
$PUCSXDIR
 10
1.0
 20
0.0
 30
0.0
  9
$PUCSYDIR
 10
0.0
 20
1.0
 30
0.0
  9
$PUCSORTHOREF
  2

  9
$PUCSORTHOVIEW
 70
     0
  9
$PUCSORGTOP
 10
0.0
 20
0.0
 30
0.0
  9
$PUCSORGBOTTOM
 10
0.0
 20
0.0
 30
0.0
  9
$PUCSORGLEFT
 10
0.0
 20
0.0
 30
0.0
  9
$PUCSORGRIGHT
 10
0.0
 20
0.0
 30
0.0
  9
$PUCSORGFRONT
 10
0.0
 20
0.0
 30
0.0
  9
$PUCSORGBACK
 10
0.0
 20
0.0
 30
0.0
  9
$USERI1
 70
     0
  9
$USERI2
 70
     0
  9
$USERI3
 70
     0
  9
$USERI4
 70
     0
  9
$USERI5
 70
     0
  9
$USERR1
 40
0.0
  9
$USERR2
 40
0.0
  9
$USERR3
 40
0.0
  9
$USERR4
 40
0.0
  9
$USERR5
 40
0.0
  9
$WORLDVIEW
 70
     1
  9
$SHADEDGE
 70
     3
  9
$SHADEDIF
 70
    70
  9
$TILEMODE
 70
     1
  9
$MAXACTVP
 70
    64
  9
$PINSBASE
 10
0.0
 20
0.0
 30
0.0
  9
$PLIMCHECK
 70
     0
  9
$PEXTMIN
 10
1.0000000000E+20
 20
1.0000000000E+20
 30
1.0000000000E+20
  9
$PEXTMAX
 10
-1.0000000000E+20
 20
-1.0000000000E+20
 30
-1.0000000000E+20
  9
$PLIMMIN
 10
0.0
 20
0.0
  9
$PLIMMAX
 10
420.0
 20
297.0
  9
$UNITMODE
 70
     0
  9
$VISRETAIN
 70
     1
  9
$PLINEGEN
 70
     0
  9
$PSLTSCALE
 70
     1
  9
$TREEDEPTH
 70
  3020
  9
$CMLSTYLE
  2
Standard
  9
$CMLJUST
 70
     0
  9
$CMLSCALE
 40
20.0
  9
$PROXYGRAPHICS
 70
     1
  9
$MEASUREMENT
 70
     1
  9
$CELWEIGHT
370
    -1
  9
$ENDCAPS
280
     0
  9
$JOINSTYLE
280
     0
  9
$LWDISPLAY
290
     1
  9
$INSUNITS
 70
     4
  9
$HYPERLINKBASE
  1

  9
$STYLESHEET
  1

  9
$XEDIT
290
     1
  9
$CEPSNTYPE
380
     0
  9
$PSTYLEMODE
290
     1
  9
$FINGERPRINTGUID
  2
{7fe24603-8cf7-4deb-80b6-fe0f0f06593f}
  9
$VERSIONGUID
  2
{FAEB1C32-E019-11D5-929B-00C0DF256EC4}
  9
$EXTNAMES
290
     1
  9
$PSVPSCALE
 40
0.0
  9
$OLESTARTUP
290
     0
  0
ENDSEC
  0
SECTION
  2
CLASSES
  0
CLASS
  1
ACDBDICTIONARYWDFLT
  2
AcDbDictionaryWithDefault
  3
ObjectDBX Classes
 90
        0
280
     0
281
     0
  0
CLASS
  1
VISUALSTYLE
  2
AcDbVisualStyle
  3
ObjectDBX Classes
 90
     4095
280
     0
281
     0
  0
CLASS
  1
MATERIAL
  2
AcDbMaterial
  3
ObjectDBX Classes
 90
     1153
280
     0
281
     0
  0
CLASS
  1
SCALE
  2
AcDbScale
  3
ObjectDBX Classes
 90
     1153
280
     0
281
     0
  0
CLASS
  1
TABLESTYLE
  2
AcDbTableStyle
  3
ObjectDBX Classes
 90
     4095
280
     0
281
     0
  0
CLASS
  1
MLEADERSTYLE
  2
AcDbMLeaderStyle
  3
ACDB_MLEADERSTYLE_CLASS
 90
     4095
280
     0
281
     0
  0
CLASS
  1
SUN
  2
AcDbSun
  3
SCENEOE
 90
     1153
280
     0
281
     0
  0
CLASS
  1
ACDBPLACEHOLDER
  2
AcDbPlaceHolder
  3
ObjectDBX Classes
 90
        0
280
     0
281
     0
  0
CLASS
  1
LAYOUT
  2
AcDbLayout
  3
ObjectDBX Classes
 90
        0
280
     0
281
     0
  0
ENDSEC
  0
SECTION
  2
TABLES
  0
TABLE
  2
VPORT
  5
8
330
0
100
AcDbSymbolTable
 70
     1
  0
VPORT
  5
29
330
8
100
AcDbSymbolTableRecord
100
AcDbViewportTableRecord
  2
*Active
 70
     0
 10
0.0
 20
0.0
 11
1.0
 21
1.0
 12
139.7
 22
107.95
 13
0.0
 23
0.0
 14
10.0
 24
10.0
 15
10.0
 25
10.0
 16
0.0
 26
0.0
 36
1.0
 17
0.0
 27
0.0
 37
0.0
 40
215.9
 41
1.2941176471
 42
50.0
 43
0.0
 44
0.0
 50
0.0
 51
0.0
 71
     0
 72
  2000
 73
     1
 74
     3
 75
     0
 76
     0
 77
     0
 78
     0
281
     0
 65
     1
110
0.0
120
0.0
130
0.0
111
1.0
121
0.0
131
0.0
112
0.0
122
1.0
132
0.0
 79
     0
146
0.0
  0
ENDTAB
  0
TABLE
  2
LTYPE
  5
5
330
0
100
AcDbSymbolTable
 70
     6
  0
LTYPE
  5
14
330
5
100
AcDbSymbolTableRecord
100
AcDbLinetypeTableRecord
  2
ByBlock
 70
     0
  3

 72
    65
 73
     0
 40
0.0
  0
LTYPE
  5
15
330
5
100
AcDbSymbolTableRecord
100
AcDbLinetypeTableRecord
  2
ByLayer
 70
     0
  3

 72
    65
 73
     0
 40
0.0
  0
LTYPE
  5
16
330
5
100
AcDbSymbolTableRecord
100
AcDbLinetypeTableRecord
  2
Continuous
 70
     0
  3
Solid line
 72
    65
 73
     0
 40
0.0
  0
LTYPE
  5
6E
330
5
100
AcDbSymbolTableRecord
100
AcDbLinetypeTableRecord
  2
HIDDEN
 70
     0
  3
Hidden __ __ __ __ __ __ __ __ __ __ __ __ __ __
 72
    65
 73
     2
 40
1.905
 49
1.27
 74
     0
 49
-0.635
 74
     0
  0
LTYPE
  5
6F
330
5
100
AcDbSymbolTableRecord
100
AcDbLinetypeTableRecord
  2
PHANTOM
 70
     0
  3
Phantom ______  __  __  ______  __  __  ______
 72
    65
 73
     6
 40
12.7
 49
6.35
 74
     0
 49
-1.27
 74
     0
 49
1.27
 74
     0
 49
-1.27
 74
     0
 49
1.27
 74
     0
 49
-1.27
 74
     0
  0
LTYPE
  5
70
330
5
100
AcDbSymbolTableRecord
100
AcDbLinetypeTableRecord
  2
CENTER
 70
     0
  3
Center ____ _ ____ _ ____ _ ____ _ ____ _ ____
 72
    65
 73
     4
 40
10.16
 49
6.35
 74
     0
 49
-1.27
 74
     0
 49
1.27
 74
     0
 49
-1.27
 74
     0
  0
LTYPE
  5
71
330
5
100
AcDbSymbolTableRecord
100
AcDbLinetypeTableRecord
  2
CENTERX2
 70
     0
  3
Center (2x) ________  __  ________  __  _____
 72
    65
 73
     4
 40
20.32
 49
12.7
 74
     0
 49
-2.54
 74
     0
 49
2.54
 74
     0
 49
-2.54
 74
     0
  0
LTYPE
  5
72
330
5
100
AcDbSymbolTableRecord
100
AcDbLinetypeTableRecord
  2
DOT2
 70
     0
  3
Dot (.5x) ........................................
 72
    65
 73
     2
 40
0.635
 49
0.0
 74
     0
 49
-0.635
 74
     0
  0
ENDTAB
  0
TABLE
  2
LAYER
  5
2
330
0
100
AcDbSymbolTable
 70
    17
  0
LAYER
  5
10
330
2
100
AcDbSymbolTableRecord
100
AcDbLayerTableRecord
  2
0
 70
     0
 62
     7
  6
Continuous
370
    -3
390
F
  0
LAYER
  5
73
330
2
100
AcDbSymbolTableRecord
100
AcDbLayerTableRecord
  2
FORMAT
 70
     0
 62
     7
  6
Continuous
370
    -3
390
F
  0
LAYER
  5
74
330
2
100
AcDbSymbolTableRecord
100
AcDbLayerTableRecord
  2
YARDIMCI_GEOMETRI
 70
     0
 62
    -6
  6
Continuous
290
     0
370
    -3
390
F
  0
LAYER
  5
75
330
2
100
AcDbSymbolTableRecord
100
AcDbLayerTableRecord
  2
SAYFA_CERCEVESI
 70
     0
 62
     7
  6
Continuous
370
    25
390
F
  0
LAYER
  5
76
330
2
100
AcDbSymbolTableRecord
100
AcDbLayerTableRecord
  2
ANTET
 70
     0
 62
     7
  6
Continuous
370
    -3
390
F
  0
LAYER
  5
77
330
2
100
AcDbSymbolTableRecord
100
AcDbLayerTableRecord
  2
OLCU
 70
     0
 62
   150
  6
Continuous
370
    -3
390
F
  0
LAYER
  5
78
330
2
100
AcDbSymbolTableRecord
100
AcDbLayerTableRecord
  2
METIN
 70
     0
 62
    96
  6
Continuous
370
    -3
390
F
  0
LAYER
  5
79
330
2
100
AcDbSymbolTableRecord
100
AcDbLayerTableRecord
  2
BALON
 70
     0
 62
     5
  6
Continuous
370
    -3
390
F
  0
LAYER
  5
7A
330
2
100
AcDbSymbolTableRecord
100
AcDbLayerTableRecord
  2
VURGU
 70
     0
 62
     7
  6
Continuous
370
    -3
390
F
  0
LAYER
  5
7B
330
2
100
AcDbSymbolTableRecord
100
AcDbLayerTableRecord
  2
SILIK
 70
     0
 62
     7
  6
Continuous
370
    -3
390
F
  0
LAYER
  5
7C
330
2
100
AcDbSymbolTableRecord
100
AcDbLayerTableRecord
  2
MODEL
 70
     0
 62
     7
  6
Continuous
370
    -3
390
F
  0
LAYER
  5
7D
330
2
100
AcDbSymbolTableRecord
100
AcDbLayerTableRecord
  2
DETAYLANDıRMA
 70
     0
 62
   190
  6
Continuous
370
    -3
390
F
  0
LAYER
  5
7E
330
2
100
AcDbSymbolTableRecord
100
AcDbLayerTableRecord
  2
TOLERANS
 70
     0
 62
   230
  6
Continuous
370
    -3
390
F
  0
LAYER
  5
7F
330
2
100
AcDbSymbolTableRecord
100
AcDbLayerTableRecord
  2
MERKEZ_CIZGILERI
 70
     0
 62
    30
  6
Continuous
370
    -3
390
F
  0
LAYER
  5
80
330
2
100
AcDbSymbolTableRecord
100
AcDbLayerTableRecord
  2
KESIT-DETAY_CIZGILERI
 70
     0
 62
     7
  6
Continuous
370
    -3
390
F
  0
LAYER
  5
81
330
2
100
AcDbSymbolTableRecord
100
AcDbLayerTableRecord
  2
\U+041E\U+0421\U+0415\U+0412\U+042B\U+0415
 70
     0
 62
     7
  6
Continuous
370
    -3
390
F
  0
LAYER
  5
82
330
2
100
AcDbSymbolTableRecord
100
AcDbLayerTableRecord
  2
\U+0412\U+041E\U+0414\U+042F\U+041D\U+042B\U+0415_\U+0417\U+041D\U+0410\U+041A\U+0418
 70
     0
 62
    11
  6
Continuous
370
    -3
390
F
  0
ENDTAB
  0
TABLE
  2
STYLE
  5
3
330
0
100
AcDbSymbolTable
 70
     1
  0
STYLE
  5
11
330
3
100
AcDbSymbolTableRecord
100
AcDbTextStyleTableRecord
  2
Standard
 70
     0
 40
0.0
 41
1.0
 50
0.0
 71
     0
 42
3.5
  3
txt
  4

  0
ENDTAB
  0
TABLE
  2
VIEW
  5
6
330
0
100
AcDbSymbolTable
 70
     0
  0
ENDTAB
  0
TABLE
  2
UCS
  5
7
330
0
100
AcDbSymbolTable
 70
     0
  0
ENDTAB
  0
TABLE
  2
APPID
  5
9
330
0
100
AcDbSymbolTable
 70
     1
  0
APPID
  5
12
330
9
100
AcDbSymbolTableRecord
100
AcDbRegAppTableRecord
  2
ACAD
 70
     0
  0
ENDTAB
  0
TABLE
  2
DIMSTYLE
  5
A
330
0
100
AcDbSymbolTable
 70
     1
100
AcDbDimStyleTable
  0
DIMSTYLE
105
27
330
A
100
AcDbSymbolTableRecord
100
AcDbDimStyleTableRecord
  2
ISO-25
 70
     0
 41
2.5
 42
0.625
 43
3.75
 44
1.25
 73
     0
 74
     0
 77
     1
 78
     8
140
2.5
141
2.5
143
0.0393700787
147
0.625
171
     3
172
     1
178
     0
271
     2
272
     2
274
     3
278
    44
283
     0
284
     8
340
11
  0
ENDTAB
  0
TABLE
  2
BLOCK_RECORD
  5
1
330
0
100
AcDbSymbolTable
 70
     2
  0
BLOCK_RECORD
  5
1F
330
1
100
AcDbSymbolTableRecord
100
AcDbBlockTableRecord
  2
*Model_Space
340
22
  0
BLOCK_RECORD
  5
1B
330
1
100
AcDbSymbolTableRecord
100
AcDbBlockTableRecord
  2
*Paper_Space
340
1E
  0
BLOCK_RECORD
  5
23
330
1
100
AcDbSymbolTableRecord
100
AcDbBlockTableRecord
  2
*Paper_Space0
340
26
  0
BLOCK_RECORD
  5
88
330
1
100
AcDbSymbolTableRecord
100
AcDbBlockTableRecord
  2
SW_CENTERMARKSYMBOL_0
340
0
102
{BLKREFS
331
93
102
}
  0
ENDTAB
  0
ENDSEC
  0
SECTION
  2
BLOCKS
  0
BLOCK
  5
20
330
1F
100
AcDbEntity
  8
0
100
AcDbBlockBegin
  2
*Model_Space
 70
     0
 10
0.0
 20
0.0
 30
0.0
  3
*Model_Space
  1

  0
ENDBLK
  5
21
330
1F
100
AcDbEntity
  8
0
100
AcDbBlockEnd
  0
BLOCK
  5
1C
330
1B
100
AcDbEntity
 67
     1
  8
0
100
AcDbBlockBegin
  2
*Paper_Space
 70
     0
 10
0.0
 20
0.0
 30
0.0
  3
*Paper_Space
  1

  0
ENDBLK
  5
1D
330
1B
100
AcDbEntity
 67
     1
  8
0
100
AcDbBlockEnd
  0
BLOCK
  5
24
330
23
100
AcDbEntity
  8
0
100
AcDbBlockBegin
  2
*Paper_Space0
 70
     0
 10
0.0
 20
0.0
 30
0.0
  3
*Paper_Space0
  1

  0
ENDBLK
  5
25
330
23
100
AcDbEntity
  8
0
100
AcDbBlockEnd
  0
BLOCK
  5
89
330
88
100
AcDbEntity
  8
0
100
AcDbBlockBegin
  2
SW_CENTERMARKSYMBOL_0
 70
     0
 10
0.0
 20
0.0
 30
0.0
  3
SW_CENTERMARKSYMBOL_0
  1

  0
LINE
  5
8B
330
88
100
AcDbEntity
  8
FORMAT
 62
     0
100
AcDbLine
 10
0.0
 20
0.0
 30
0.0
 11
0.0
 21
2.5
 31
0.0
  0
LINE
  5
8C
330
88
100
AcDbEntity
  8
FORMAT
 62
     0
100
AcDbLine
 10
0.0
 20
0.0
 30
0.0
 11
-2.5
 21
0.0
 31
0.0
  0
LINE
  5
8D
330
88
100
AcDbEntity
  8
FORMAT
 62
     0
100
AcDbLine
 10
0.0
 20
0.0
 30
0.0
 11
0.0
 21
-2.5
 31
0.0
  0
LINE
  5
8E
330
88
100
AcDbEntity
  8
FORMAT
 62
     0
100
AcDbLine
 10
0.0
 20
0.0
 30
0.0
 11
2.5
 21
0.0
 31
0.0
  0
LINE
  5
8F
330
88
100
AcDbEntity
  8
FORMAT
 62
     0
100
AcDbLine
 10
0.0
 20
5.0
 30
0.0
 11
0.0
 21
227.5
 31
0.0
  0
LINE
  5
90
330
88
100
AcDbEntity
  8
FORMAT
 62
     0
100
AcDbLine
 10
-5.0
 20
0.0
 30
0.0
 11
-227.5
 21
0.0
 31
0.0
  0
LINE
  5
91
330
88
100
AcDbEntity
  8
FORMAT
 62
     0
100
AcDbLine
 10
0.0
 20
-5.0
 30
0.0
 11
0.0
 21
-227.5
 31
0.0
  0
LINE
  5
92
330
88
100
AcDbEntity
  8
FORMAT
 62
     0
100
AcDbLine
 10
5.0
 20
0.0
 30
0.0
 11
227.5
 21
0.0
 31
0.0
  0
ENDBLK
  5
8A
330
88
100
AcDbEntity
  8
0
100
AcDbBlockEnd
  0
ENDSEC
  0
SECTION
  2
ENTITIES
  0
CIRCLE
  5
83
330
1F
100
AcDbEntity
  8
0
  6
Continuous
 62
     7
370
    25
100
AcDbCircle
 10
139.395004093
 20
107.5851680021
 30
0.0
 40
225.0
  0
CIRCLE
  5
84
330
1F
100
AcDbEntity
  8
0
  6
Continuous
 62
     7
370
    25
100
AcDbCircle
 10
139.395004093
 20
107.5851680021
 30
0.0
 40
184.1
  0
CIRCLE
  5
85
330
1F
100
AcDbEntity
  8
0
  6
Continuous
 62
     7
370
    25
100
AcDbCircle
 10
139.395004093
 20
107.5851680021
 30
0.0
 40
183.8875409460204
  0
CIRCLE
  5
86
330
1F
100
AcDbEntity
  8
0
  6
Continuous
 62
     7
370
    25
100
AcDbCircle
 10
139.395004093
 20
107.5851680021
 30
0.0
 40
163.9124590539797
  0
CIRCLE
  5
87
330
1F
100
AcDbEntity
  8
0
  6
Continuous
 62
     7
370
    25
100
AcDbCircle
 10
139.395004093
 20
107.5851680021
 30
0.0
 40
163.7
  0
INSERT
  5
93
330
1F
100
AcDbEntity
  8
FORMAT
 62
     7
100
AcDbBlockReference
  2
SW_CENTERMARKSYMBOL_0
 10
139.395004093
 20
107.5851680021
 30
0.0
  0
ARC
  5
94
330
1F
100
AcDbEntity
  8
0
  6
Continuous
 62
     7
370
    25
100
AcDbCircle
 10
-567.2100745522
 20
330.5851680021
 30
0.0
 40
2.0
100
AcDbArc
 50
73.2374455382
 51
90.0
  0
ARC
  5
95
330
1F
100
AcDbEntity
  8
0
  6
Continuous
 62
     7
370
    25
100
AcDbCircle
 10
-567.2100745522
 20
-115.4148319979
 30
0.0
 40
2.0
100
AcDbArc
 50
270.0
 51
286.7625544618
  0
LINE
  5
96
330
1F
100
AcDbEntity
  8
0
  6
Continuous
 62
     7
370
    25
100
AcDbLine
 10
-567.2100745522
 20
332.5851680021
 30
0.0
 11
-769.9154080137
 21
332.5851680021
 31
0.0
  0
LINE
  5
97
330
1F
100
AcDbEntity
  8
0
  6
Continuous
 62
     7
370
    25
100
AcDbLine
 10
-769.9154080137
 20
-117.4148319979
 30
0.0
 11
-567.2100745522
 21
-117.4148319979
 31
0.0
  0
LINE
  5
98
330
1F
100
AcDbEntity
  8
0
  6
Continuous
 62
     7
370
    25
100
AcDbLine
 10
-566.63326239
 20
-117.3298483763
 30
0.0
 11
-484.1975536374
 21
-92.4998156195
 31
0.0
  0
LINE
  5
99
330
1F
100
AcDbEntity
  8
0
  6
Continuous
 62
     7
370
    25
100
AcDbLine
 10
-484.1975536374
 20
307.6701516237
 30
0.0
 11
-566.63326239
 21
332.5001843805
 31
0.0
  0
ARC
  5
9A
330
1F
100
AcDbEntity
  8
0
  6
Continuous
 62
     7
370
    25
100
AcDbCircle
 10
-483.6207414752
 20
309.5851680021
 30
0.0
 40
2.000000000000057
100
AcDbArc
 50
253.2374455382
 51
270.0
  0
ARC
  5
9B
330
1F
100
AcDbEntity
  8
0
  6
Continuous
 62
     7
370
    25
100
AcDbCircle
 10
-483.6207414752
 20
-94.4148319979
 30
0.0
 40
2.000000000000042
100
AcDbArc
 50
90.0
 51
106.7625544618
  0
LINE
  5
9C
330
1F
100
AcDbEntity
  8
0
  6
Continuous
 62
     7
370
    25
100
AcDbLine
 10
-294.9154080137
 20
307.5851680021
 30
0.0
 11
-483.6207414752
 21
307.5851680021
 31
0.0
  0
LINE
  5
9D
330
1F
100
AcDbEntity
  8
0
  6
Continuous
 62
     7
370
    25
100
AcDbLine
 10
-483.6207414752
 20
-92.4148319979
 30
0.0
 11
-294.9154080137
 21
-92.4148319979
 31
0.0
  0
LINE
  5
9E
330
1F
100
AcDbEntity
  8
0
  6
Continuous
 62
     7
370
    25
100
AcDbLine
 10
-769.9154080137
 20
332.5851680021
 30
0.0
 11
-769.9154080137
 21
-117.4148319979
 31
0.0
  0
LINE
  5
9F
330
1F
100
AcDbEntity
  8
0
  6
Continuous
 62
     7
370
    25
100
AcDbLine
 10
-294.9154080137
 20
307.5851680021
 30
0.0
 11
-294.9154080137
 21
-92.4148319979
 31
0.0
  0
LINE
  5
A0
330
1F
100
AcDbEntity
  8
0
  6
Continuous
 62
     1
370
    25
100
AcDbLine
 10
-566.63326239
 20
332.5001843805
 30
0.0
 11
-566.63326239
 21
-117.3298483763
 31
0.0
  0
LINE
  5
A1
330
1F
100
AcDbEntity
  8
0
  6
Continuous
 62
     1
370
    25
100
AcDbLine
 10
-567.2100745522
 20
332.5851680021
 30
0.0
 11
-567.2100745522
 21
-117.4148319979
 31
0.0
  0
LINE
  5
A2
330
1F
100
AcDbEntity
  8
0
  6
Continuous
 62
     1
370
    25
100
AcDbLine
 10
-484.1975536374
 20
307.6701516237
 30
0.0
 11
-484.1975536374
 21
-92.4998156195
 31
0.0
  0
LINE
  5
A3
330
1F
100
AcDbEntity
  8
0
  6
Continuous
 62
     1
370
    25
100
AcDbLine
 10
-483.6207414752
 20
307.5851680021
 30
0.0
 11
-483.6207414752
 21
-92.4148319979
 31
0.0
  0
ARC
  5
A4
330
1F
100
AcDbEntity
  8
0
  6
Continuous
 62
     7
370
    25
100
AcDbCircle
 10
812.6477706646
 20
-115.4148319979
 30
0.0
 40
2.0
100
AcDbArc
 50
253.2374455382
 51
270.0
  0
ARC
  5
A5
330
1F
100
AcDbEntity
  8
0
  6
Continuous
 62
     7
370
    25
100
AcDbCircle
 10
812.6477706646
 20
330.5851680021
 30
0.0
 40
2.0
100
AcDbArc
 50
90.0
 51
106.7625544618
  0
LINE
  5
A6
330
1F
100
AcDbEntity
  8
0
  6
Continuous
 62
     7
370
    25
100
AcDbLine
 10
812.6477706646
 20
-117.4148319979
 30
0.0
 11
1015.3531041262
 21
-117.4148319979
 31
0.0
  0
LINE
  5
A7
330
1F
100
AcDbEntity
  8
0
  6
Continuous
 62
     7
370
    25
100
AcDbLine
 10
1015.3531041262
 20
332.5851680021
 30
0.0
 11
812.6477706646
 21
332.5851680021
 31
0.0
  0
LINE
  5
A8
330
1F
100
AcDbEntity
  8
0
  6
Continuous
 62
     7
370
    25
100
AcDbLine
 10
812.0709585025
 20
332.5001843805
 30
0.0
 11
729.6352497498
 21
307.6701516237
 31
0.0
  0
LINE
  5
A9
330
1F
100
AcDbEntity
  8
0
  6
Continuous
 62
     7
370
    25
100
AcDbLine
 10
729.6352497498
 20
-92.4998156195
 30
0.0
 11
812.0709585025
 21
-117.3298483763
 31
0.0
  0
ARC
  5
AA
330
1F
100
AcDbEntity
  8
0
  6
Continuous
 62
     7
370
    25
100
AcDbCircle
 10
729.0584375877
 20
-94.4148319979
 30
0.0
 40
2.000000000000058
100
AcDbArc
 50
73.2374455382
 51
90.0
  0
ARC
  5
AB
330
1F
100
AcDbEntity
  8
0
  6
Continuous
 62
     7
370
    25
100
AcDbCircle
 10
729.0584375877
 20
309.5851680021
 30
0.0
 40
2.000000000000057
100
AcDbArc
 50
270.0
 51
286.7625544618
  0
LINE
  5
AC
330
1F
100
AcDbEntity
  8
0
  6
Continuous
 62
     7
370
    25
100
AcDbLine
 10
540.3531041262
 20
-92.4148319979
 30
0.0
 11
729.0584375877
 21
-92.4148319979
 31
0.0
  0
LINE
  5
AD
330
1F
100
AcDbEntity
  8
0
  6
Continuous
 62
     7
370
    25
100
AcDbLine
 10
729.0584375877
 20
307.5851680021
 30
0.0
 11
540.3531041262
 21
307.5851680021
 31
0.0
  0
LINE
  5
AE
330
1F
100
AcDbEntity
  8
0
  6
Continuous
 62
     7
370
    25
100
AcDbLine
 10
1015.3531041262
 20
107.5851680021
 30
0.0
 11
1015.3531041262
 21
332.5851680021
 31
0.0
  0
LINE
  5
AF
330
1F
100
AcDbEntity
  8
0
  6
Continuous
 62
     7
370
    25
100
AcDbLine
 10
1015.3531041262
 20
-117.4148319979
 30
0.0
 11
1015.3531041262
 21
107.5851680021
 31
0.0
  0
LINE
  5
B0
330
1F
100
AcDbEntity
  8
0
  6
Continuous
 62
     7
370
    25
100
AcDbLine
 10
540.3531041262
 20
107.5851680021
 30
0.0
 11
540.3531041262
 21
307.5851680021
 31
0.0
  0
LINE
  5
B1
330
1F
100
AcDbEntity
  8
0
  6
Continuous
 62
     7
370
    25
100
AcDbLine
 10
540.3531041262
 20
-92.4148319979
 30
0.0
 11
540.3531041262
 21
107.5851680021
 31
0.0
  0
LINE
  5
B2
330
1F
100
AcDbEntity
  8
0
  6
Continuous
 62
     1
370
    25
100
AcDbLine
 10
812.0709585025
 20
107.5851680021
 30
0.0
 11
812.0709585025
 21
332.5001843805
 31
0.0
  0
LINE
  5
B3
330
1F
100
AcDbEntity
  8
0
  6
Continuous
 62
     1
370
    25
100
AcDbLine
 10
812.0709585025
 20
-117.3298483763
 30
0.0
 11
812.0709585025
 21
107.5851680021
 31
0.0
  0
LINE
  5
B4
330
1F
100
AcDbEntity
  8
0
  6
Continuous
 62
     1
370
    25
100
AcDbLine
 10
812.6477706646
 20
107.5851680021
 30
0.0
 11
812.6477706646
 21
332.5851680021
 31
0.0
  0
LINE
  5
B5
330
1F
100
AcDbEntity
  8
0
  6
Continuous
 62
     1
370
    25
100
AcDbLine
 10
812.6477706646
 20
-117.4148319979
 30
0.0
 11
812.6477706646
 21
107.5851680021
 31
0.0
  0
LINE
  5
B6
330
1F
100
AcDbEntity
  8
0
  6
Continuous
 62
     1
370
    25
100
AcDbLine
 10
729.6352497498
 20
107.5851680021
 30
0.0
 11
729.6352497498
 21
307.6701516237
 31
0.0
  0
LINE
  5
B7
330
1F
100
AcDbEntity
  8
0
  6
Continuous
 62
     1
370
    25
100
AcDbLine
 10
729.6352497498
 20
-92.4998156195
 30
0.0
 11
729.6352497498
 21
107.5851680021
 31
0.0
  0
LINE
  5
B8
330
1F
100
AcDbEntity
  8
0
  6
Continuous
 62
     1
370
    25
100
AcDbLine
 10
729.0584375877
 20
107.5851680021
 30
0.0
 11
729.0584375877
 21
307.5851680021
 31
0.0
  0
LINE
  5
B9
330
1F
100
AcDbEntity
  8
0
  6
Continuous
 62
     1
370
    25
100
AcDbLine
 10
729.0584375877
 20
-92.4148319979
 30
0.0
 11
729.0584375877
 21
107.5851680021
 31
0.0
  0
ARC
  5
BA
330
1F
100
AcDbEntity
  8
0
  6
Continuous
 62
     7
370
    25
100
AcDbCircle
 10
362.395004093
 20
727.5554026112
 30
0.0
 40
2.000000000000031
100
AcDbArc
 50
343.2374455382
 51
0.0
  0
ARC
  5
BB
330
1F
100
AcDbEntity
  8
0
  6
Continuous
 62
     7
370
    25
100
AcDbCircle
 10
-83.604995907
 20
727.5554026112
 30
0.0
 40
2.000000000000044
100
AcDbArc
 50
180.0
 51
196.7625544618
  0
LINE
  5
BC
330
1F
100
AcDbEntity
  8
0
  6
Continuous
 62
     7
370
    25
100
AcDbLine
 10
364.395004093
 20
727.5554026112
 30
0.0
 11
364.395004093
 21
930.2607360727
 31
0.0
  0
LINE
  5
BD
330
1F
100
AcDbEntity
  8
0
  6
Continuous
 62
     7
370
    25
100
AcDbLine
 10
-85.604995907
 20
930.2607360727
 30
0.0
 11
-85.604995907
 21
727.5554026112
 31
0.0
  0
LINE
  5
BE
330
1F
100
AcDbEntity
  8
0
  6
Continuous
 62
     7
370
    25
100
AcDbLine
 10
-85.5200122854
 20
726.978590449
 30
0.0
 11
-60.6899795285
 21
644.5428816964
 31
0.0
  0
LINE
  5
BF
330
1F
100
AcDbEntity
  8
0
  6
Continuous
 62
     7
370
    25
100
AcDbLine
 10
339.4799877146
 20
644.5428816964
 30
0.0
 11
364.3100204715
 21
726.978590449
 31
0.0
  0
ARC
  5
C0
330
1F
100
AcDbEntity
  8
0
  6
Continuous
 62
     7
370
    25
100
AcDbCircle
 10
341.395004093
 20
643.9660695342
 30
0.0
 40
2.000000000000052
100
AcDbArc
 50
163.2374455382
 51
180.0
  0
ARC
  5
C1
330
1F
100
AcDbEntity
  8
0
  6
Continuous
 62
     7
370
    25
100
AcDbCircle
 10
-62.604995907
 20
643.9660695342
 30
0.0
 40
2.000000000000028
100
AcDbArc
 50
0.0
 51
16.7625544618
  0
LINE
  5
C2
330
1F
100
AcDbEntity
  8
0
  6
Continuous
 62
     7
370
    25
100
AcDbLine
 10
339.395004093
 20
455.2607360727
 30
0.0
 11
339.395004093
 21
643.9660695342
 31
0.0
  0
LINE
  5
C3
330
1F
100
AcDbEntity
  8
0
  6
Continuous
 62
     7
370
    25
100
AcDbLine
 10
-60.604995907
 20
643.9660695342
 30
0.0
 11
-60.604995907
 21
455.2607360727
 31
0.0
  0
LINE
  5
C4
330
1F
100
AcDbEntity
  8
0
  6
Continuous
 62
     7
370
    25
100
AcDbLine
 10
364.395004093
 20
930.2607360727
 30
0.0
 11
-85.604995907
 21
930.2607360727
 31
0.0
  0
LINE
  5
C5
330
1F
100
AcDbEntity
  8
0
  6
Continuous
 62
     7
370
    25
100
AcDbLine
 10
339.395004093
 20
455.2607360727
 30
0.0
 11
-60.604995907
 21
455.2607360727
 31
0.0
  0
LINE
  5
C6
330
1F
100
AcDbEntity
  8
0
  6
Continuous
 62
     1
370
    25
100
AcDbLine
 10
364.3100204715
 20
726.978590449
 30
0.0
 11
-85.5200122854
 21
726.978590449
 31
0.0
  0
LINE
  5
C7
330
1F
100
AcDbEntity
  8
0
  6
Continuous
 62
     1
370
    25
100
AcDbLine
 10
364.395004093
 20
727.5554026112
 30
0.0
 11
-85.604995907
 21
727.5554026112
 31
0.0
  0
LINE
  5
C8
330
1F
100
AcDbEntity
  8
0
  6
Continuous
 62
     1
370
    25
100
AcDbLine
 10
339.4799877146
 20
644.5428816964
 30
0.0
 11
-60.6899795285
 21
644.5428816964
 31
0.0
  0
LINE
  5
C9
330
1F
100
AcDbEntity
  8
0
  6
Continuous
 62
     1
370
    25
100
AcDbLine
 10
339.395004093
 20
643.9660695342
 30
0.0
 11
-60.604995907
 21
643.9660695342
 31
0.0
  0
ARC
  5
CA
330
1F
100
AcDbEntity
  8
0
  6
Continuous
 62
     7
370
    25
100
AcDbCircle
 10
-83.604995907
 20
-521.7946252946
 30
0.0
 40
2.000000000000014
100
AcDbArc
 50
163.2374455382
 51
180.0
  0
ARC
  5
CB
330
1F
100
AcDbEntity
  8
0
  6
Continuous
 62
     7
370
    25
100
AcDbCircle
 10
362.395004093
 20
-521.7946252946
 30
0.0
 40
2.0
100
AcDbArc
 50
0.0
 51
16.7625544618
  0
LINE
  5
CC
330
1F
100
AcDbEntity
  8
0
  6
Continuous
 62
     7
370
    25
100
AcDbLine
 10
-85.604995907
 20
-521.7946252946
 30
0.0
 11
-85.604995907
 21
-724.4999587561
 31
0.0
  0
LINE
  5
CD
330
1F
100
AcDbEntity
  8
0
  6
Continuous
 62
     7
370
    25
100
AcDbLine
 10
364.395004093
 20
-724.4999587561
 30
0.0
 11
364.395004093
 21
-521.7946252946
 31
0.0
  0
LINE
  5
CE
330
1F
100
AcDbEntity
  8
0
  6
Continuous
 62
     7
370
    25
100
AcDbLine
 10
364.3100204715
 20
-521.2178131324
 30
0.0
 11
339.4799877146
 21
-438.7821043798
 31
0.0
  0
LINE
  5
CF
330
1F
100
AcDbEntity
  8
0
  6
Continuous
 62
     7
370
    25
100
AcDbLine
 10
-60.6899795285
 20
-438.7821043798
 30
0.0
 11
-85.5200122854
 21
-521.2178131324
 31
0.0
  0
ARC
  5
D0
330
1F
100
AcDbEntity
  8
0
  6
Continuous
 62
     7
370
    25
100
AcDbCircle
 10
-62.604995907
 20
-438.2052922176
 30
0.0
 40
2.000000000000042
100
AcDbArc
 50
343.2374455382
 51
0.0
  0
ARC
  5
D1
330
1F
100
AcDbEntity
  8
0
  6
Continuous
 62
     7
370
    25
100
AcDbCircle
 10
341.395004093
 20
-438.2052922176
 30
0.0
 40
2.000000000000069
100
AcDbArc
 50
180.0
 51
196.7625544618
  0
LINE
  5
D2
330
1F
100
AcDbEntity
  8
0
  6
Continuous
 62
     7
370
    25
100
AcDbLine
 10
-60.604995907
 20
-249.4999587561
 30
0.0
 11
-60.604995907
 21
-438.2052922176
 31
0.0
  0
LINE
  5
D3
330
1F
100
AcDbEntity
  8
0
  6
Continuous
 62
     7
370
    25
100
AcDbLine
 10
339.395004093
 20
-438.2052922176
 30
0.0
 11
339.395004093
 21
-249.4999587561
 31
0.0
  0
LINE
  5
D4
330
1F
100
AcDbEntity
  8
0
  6
Continuous
 62
     7
370
    25
100
AcDbLine
 10
-85.604995907
 20
-724.4999587561
 30
0.0
 11
364.395004093
 21
-724.4999587561
 31
0.0
  0
LINE
  5
D5
330
1F
100
AcDbEntity
  8
0
  6
Continuous
 62
     7
370
    25
100
AcDbLine
 10
-60.604995907
 20
-249.4999587561
 30
0.0
 11
339.395004093
 21
-249.4999587561
 31
0.0
  0
LINE
  5
D6
330
1F
100
AcDbEntity
  8
0
  6
Continuous
 62
     1
370
    25
100
AcDbLine
 10
-85.5200122854
 20
-521.2178131324
 30
0.0
 11
364.3100204715
 21
-521.2178131324
 31
0.0
  0
LINE
  5
D7
330
1F
100
AcDbEntity
  8
0
  6
Continuous
 62
     1
370
    25
100
AcDbLine
 10
-85.604995907
 20
-521.7946252946
 30
0.0
 11
364.395004093
 21
-521.7946252946
 31
0.0
  0
LINE
  5
D8
330
1F
100
AcDbEntity
  8
0
  6
Continuous
 62
     1
370
    25
100
AcDbLine
 10
-60.6899795285
 20
-438.7821043798
 30
0.0
 11
339.4799877146
 21
-438.7821043798
 31
0.0
  0
LINE
  5
D9
330
1F
100
AcDbEntity
  8
0
  6
Continuous
 62
     1
370
    25
100
AcDbLine
 10
-60.604995907
 20
-438.2052922176
 30
0.0
 11
339.395004093
 21
-438.2052922176
 31
0.0
  0
LINE
  5
DA
330
1F
100
AcDbEntity
  8
0
  6
Continuous
 62
     7
370
    25
100
AcDbLine
 10
873.1304006014
 20
-291.5154234361
 30
0.0
 11
729.7960847281
 21
-208.7702841623
 31
0.0
  0
LINE
  5
DB
330
1F
100
AcDbEntity
  8
0
  6
Continuous
 62
     7
370
    25
100
AcDbLine
 10
504.8143698849
 20
-598.4922722336
 30
0.0
 11
648.1486857583
 21
-681.2374115075
 31
0.0
  0
LINE
  5
DC
330
1F
100
AcDbEntity
  8
0
  6
Continuous
 62
     7
370
    25
100
AcDbLine
 10
675.135055388
 20
-690.7585105702
 30
0.0
 11
742.9104046392
 21
-701.8718436451
 31
0.0
  0
LINE
  5
DD
330
1F
100
AcDbEntity
  8
0
  6
Continuous
 62
     7
370
    25
100
AcDbLine
 10
938.3879349603
 20
-363.2581398909
 30
0.0
 11
894.8708453408
 21
-310.1237155579
 31
0.0
  0
LINE
  5
DE
330
1F
100
AcDbEntity
  8
0
  6
Continuous
 62
     7
370
    25
100
AcDbLine
 10
1053.1728216337
 20
-424.3184322797
 30
0.0
 11
930.3041969897
 21
-353.3878850718
 31
0.0
  0
LINE
  5
DF
330
1F
100
AcDbEntity
  8
0
  6
Continuous
 62
     7
370
    25
100
AcDbLine
 10
730.3204504624
 20
-699.8074300241
 30
0.0
 11
853.1890751065
 21
-770.737977232
 31
0.0
  0
LWPOLYLINE
  5
E0
330
1F
100
AcDbEntity
  8
0
  6
Continuous
 62
     7
370
    25
100
AcDbPolyline
 90
      160
 70
   128
 43
0.0
 10
458.2062015395
 20
-495.477190778
 10
458.3304086608
 20
-488.1472676408
 10
458.7028360899
 20
-480.6853828187
 10
459.3229023257
 20
-473.1031871592
 10
460.1896392083
 20
-465.4125193606
 10
461.301693431
 20
-457.6253874878
 10
462.6573286531
 20
-449.7539502228
 10
464.2544282112
 20
-441.8104978806
 10
466.0904984238
 20
-433.8074332189
 10
468.1626724853
 20
-425.7572520733
 10
470.4677149418
 20
-417.6725238461
 10
473.0020267433
 20
-409.5658718805
 10
475.7616508626
 20
-401.4499537514
 10
478.7422784743
 20
-393.3374415015
 10
481.9392556821
 20
-385.2410018556
 10
485.3475907858
 20
-377.1732764432
 10
488.9619620746
 20
-369.1468620598
 10
492.7767261367
 20
-361.1742909986
 10
496.7859266711
 20
-353.268011483
 10
500.9833037868
 20
-345.4403682299
 10
505.3623037779
 20
-337.703583175
 10
509.9160893557
 20
-330.0697363898
 10
514.6375503245
 20
-322.5507472198
 10
519.5193146835
 20
-315.1583556742
 10
524.5537601373
 20
-307.9041040947
 10
529.7330259967
 20
-300.799319134
 10
535.049025453
 20
-293.8550940706
 10
540.4934582042
 20
-287.0822714874
 10
546.0578234146
 20
-280.4914263431
 10
551.7334329887
 20
-274.0928494598
 10
557.5114251358
 20
-267.8965314558
 10
563.382778207
 20
-261.9121471462
 10
569.3383247815
 20
-256.1490404367
 10
575.3687659802
 20
-250.6162097343
 10
581.4646859852
 20
-245.3222938972
 10
587.6165667409
 20
-240.2755587468
 10
593.8148028159
 20
-235.4838841607
 10
600.0497164002
 20
-230.9547517702
 10
606.3115724164
 20
-226.6952332778
 10
612.5905937197
 20
-222.7119794159
 10
618.8769763637
 20
-219.0112095626
 10
625.1609049081
 20
-215.5987020308
 10
631.4325677445
 20
-212.4797850459
 10
637.6821724158
 20
-209.6593284265
 10
643.8999609062
 20
-207.1417359808
 10
650.076224877
 20
-204.9309386306
 10
656.2013208253
 20
-203.0303882734
 10
662.2656851409
 20
-201.4430523931
 10
668.2598490386
 20
-200.1714094262
 10
674.1744533432
 20
-199.2174448923
 10
680.0002631021
 20
-198.5826482937
 10
685.728182005
 20
-198.2680107899
 10
691.3492665864
 20
-198.2740236501
 10
696.85474019
 20
-198.600677486
 10
702.2360066723
 20
-199.2474622662
 10
707.4846638246
 20
-200.2133681132
 10
712.5925164917
 20
-201.4968868796
 10
717.551589368
 20
-203.0960145033
 10
722.3541394499
 20
-205.0082541363
 10
726.9926681255
 20
-207.2306200433
 10
731.459932883
 20
-209.7596422639
 10
735.7489586187
 20
-212.5913720301
 10
739.8530485281
 20
-215.721387932
 10
743.7657945619
 20
-219.1448028212
 10
747.4810874318
 20
-222.8562714419
 10
750.9931261488
 20
-226.8499987764
 10
754.2964270816
 20
-231.1197490935
 10
757.3858325177
 20
-235.6588556849
 10
760.2565187173
 20
-240.4602312746
 10
762.9040034448
 20
-245.5163790844
 10
765.3241529669
 20
-250.8194045399
 10
767.5131885075
 20
-256.3610275962
 10
769.4676921475
 20
-262.1325956668
 10
771.1846121614
 20
-268.1250971332
 10
772.6612677824
 20
-274.3291754159
 10
773.895353388
 20
-280.7351435829
 10
774.8849421002
 20
-287.3329994755
 10
775.6284887936
 20
-294.1124413249
 10
776.1248325082
 20
-301.0628838374
 10
776.3731982623
 20
-308.1734747221
 10
776.3731982623
 20
-315.4331116354
 10
776.1248325082
 20
-322.8304595161
 10
775.6284887936
 20
-330.3539682834
 10
774.8849421002
 20
-337.9918908717
 10
773.895353388
 20
-345.7323015714
 10
772.6612677824
 20
-353.5631146501
 10
771.1846121613
 20
-361.4721032227
 10
769.4676921475
 20
-369.4469183425
 10
767.5131885075
 20
-377.4751082822
 10
765.3241529669
 20
-385.5441379763
 10
762.9040034448
 20
-393.6414085928
 10
760.2565187173
 20
-401.7542772049
 10
757.3858325177
 20
-409.8700765312
 10
754.2964270816
 20
-417.9761347144
 10
750.9931261488
 20
-426.0597951071
 10
747.4810874318
 20
-434.108436033
 10
743.7657945619
 20
-442.1094904948
 10
739.8530485281
 20
-450.0504657958
 10
735.7489586187
 20
-457.9189630456
 10
731.459932883
 20
-465.7026965199
 10
726.9926681255
 20
-473.3895128427
 10
722.3541394499
 20
-480.967409963
 10
717.551589368
 20
-488.4245558939
 10
712.5925164917
 20
-495.7493071872
 10
707.4846638246
 20
-502.9302271133
 10
702.2360066723
 20
-509.9561035182
 10
696.85474019
 20
-516.8159663299
 10
691.3492665864
 20
-523.4991046869
 10
685.728182005
 20
-529.9950836619
 10
680.0002631021
 20
-536.2937605551
 10
674.1744533432
 20
-542.38530073
 10
668.2598490386
 20
-548.2601929698
 10
662.2656851409
 20
-553.9092643277
 10
656.2013208253
 20
-559.3236944494
 10
650.076224877
 20
-564.4950293448
 10
643.8999609062
 20
-569.4151945885
 10
637.6821724158
 20
-574.0765079265
 10
631.4325677445
 20
-578.4716912714
 10
625.1609049081
 20
-582.593882066
 10
618.8769763637
 20
-586.4366439989
 10
612.5905937197
 20
-589.9939770533
 10
606.3115724164
 20
-593.2603268761
 10
600.0497164002
 20
-596.2305934497
 10
593.8148028159
 20
-598.9001390554
 10
587.6165667409
 20
-601.2647955147
 10
581.4646859852
 20
-603.3208706972
 10
575.3687659802
 20
-605.0651542857
 10
569.3383247815
 20
-606.4949227882
 10
563.382778207
 20
-607.6079437911
 10
557.5114251358
 20
-608.4024794441
 10
551.7334329887
 20
-608.8772891743
 10
546.0578234146
 20
-609.0316316224
 10
540.4934582042
 20
-608.8652658011
 10
535.049025453
 20
-608.378451471
 10
529.7330259967
 20
-607.5719487347
 10
524.5537601373
 20
-606.4470168506
 10
519.5193146835
 20
-605.0054122663
 10
514.6375503245
 20
-603.2493858762
 10
509.9160893557
 20
-601.1816795071
 10
505.3623037779
 20
-598.8055216369
 10
500.9833037868
 20
-596.1246223542
 10
496.7859266711
 20
-593.1431675649
 10
492.7767261367
 20
-589.8658124568
 10
488.9619620746
 20
-586.2976742308
 10
485.3475907858
 20
-582.4443241112
 10
481.9392556821
 20
-578.3117786468
 10
478.7422784742
 20
-573.9064903168
 10
475.7616508626
 20
-569.2353374559
 10
473.0020267433
 20
-564.3056135149
 10
470.4677149418
 20
-559.1250156725
 10
468.1626724853
 20
-553.7016328172
 10
466.0904984238
 20
-548.0439329177
 10
464.2544282112
 20
-542.1607498006
 10
462.6573286531
 20
-536.061269358
 10
461.301693431
 20
-529.7550152046
 10
460.1896392083
 20
-523.2518338077
 10
459.3229023257
 20
-516.5618791129
 10
458.7028360899
 20
-509.6955966906
 10
458.3304086608
 20
-502.6637074255
 10
458.2062015395
 20
-495.477190778
  0
LWPOLYLINE
  5
E1
330
1F
100
AcDbEntity
  8
0
  6
Continuous
 62
     7
370
    25
100
AcDbPolyline
 90
      145
 70
   128
 43
0.0
 10
487.1268688901
 20
-478.7816448912
 10
487.2507698421
 20
-472.153026858
 10
487.6222368458
 20
-465.3939737817
 10
488.2405627924
 20
-458.517351904
 10
489.1045706636
 20
-451.5362512655
 10
490.2126157711
 20
-444.463960788
 10
491.5625888881
 20
-437.3139429784
 10
493.1519202642
 20
-430.099808302
 10
494.9775845166
 20
-422.8352892741
 10
497.0361063896
 20
-415.5342143197
 10
499.32356737
 20
-408.2104814499
 10
501.8356131458
 20
-400.8780318064
 10
504.5674618949
 20
-393.550823124
 10
507.5139133881
 20
-386.2428031606
 10
510.6693588875
 20
-378.9678831479
 10
514.0277918232
 20
-371.7399113093
 10
517.5828192272
 20
-364.5726465002
 10
521.3276739029
 20
-357.4797320166
 10
525.2552273065
 20
-350.4746696241
 10
529.3580031169
 20
-343.5707938573
 10
533.6281914671
 20
-336.781246636
 10
538.0576638109
 20
-330.1189522494
 10
542.637988396
 20
-323.5965927533
 10
547.3604463141
 20
-317.2265838299
 10
552.2160480983
 20
-311.0210511531
 10
557.1955508345
 20
-304.9918073071
 10
562.2894757563
 20
-299.1503293003
 10
567.488126288
 20
-293.507736718
 10
572.781606503
 20
-288.0747705559
 10
578.1598399607
 20
-282.8617727739
 10
583.6125888881
 20
-277.8786666096
 10
589.1294736678
 20
-273.1349376887
 10
594.6999925958
 20
-268.639615969
 10
600.313541873
 20
-264.4012585507
 10
605.9594357891
 20
-260.4279333881
 10
611.6269270642
 20
-256.7272039315
 10
617.3052273065
 20
-253.3061147298
 10
622.9835275489
 20
-250.1711780206
 10
628.651018824
 20
-247.3283613343
 10
634.2969127401
 20
-244.7830761338
 10
639.9104620172
 20
-242.5401675144
 10
645.4809809453
 20
-240.6039049799
 10
650.9978657249
 20
-238.9779743163
 10
656.4506146523
 20
-237.6654705748
 10
661.82884811
 20
-236.6688921811
 10
667.122328325
 20
-235.9901361786
 10
672.3209788567
 20
-235.6304946181
 10
677.4149037785
 20
-235.5906520977
 10
682.3944065147
 20
-235.8706844598
 10
687.2500082989
 20
-236.4700586471
 10
691.972466217
 20
-237.3876337165
 10
696.5527908021
 20
-238.6216630119
 10
700.9822631459
 20
-240.1697974884
 10
705.2524514961
 20
-242.0290901839
 10
709.3552273065
 20
-244.1960018292
 10
713.2827807101
 20
-246.6664075847
 10
717.0276353858
 20
-249.4356048928
 10
720.5826627898
 20
-252.4983224289
 10
723.9410957255
 20
-255.8487301361
 10
727.0965412249
 20
-259.480450323
 10
730.0429927181
 20
-263.3865698038
 10
732.7748414672
 20
-267.5596530579
 10
735.286887243
 20
-271.9917563844
 10
737.5743482234
 20
-276.6744430225
 10
739.6328700965
 20
-281.5987992121
 10
741.4585343488
 20
-286.7554511613
 10
743.0478657249
 20
-292.1345828901
 10
744.3978388419
 20
-297.7259549155
 10
745.5058839494
 20
-303.518923743
 10
746.3698918206
 20
-309.5024621272
 10
746.9882177673
 20
-315.6651800627
 10
747.3596847709
 20
-321.9953464657
 10
747.4835857229
 20
-328.4809115047
 10
747.3596847709
 20
-335.1095295379
 10
746.9882177673
 20
-341.8685826142
 10
746.3698918206
 20
-348.7452044919
 10
745.5058839494
 20
-355.7263051304
 10
744.3978388419
 20
-362.7985956079
 10
743.0478657249
 20
-369.9486134175
 10
741.4585343488
 20
-377.1627480939
 10
739.6328700965
 20
-384.4272671218
 10
737.5743482234
 20
-391.7283420762
 10
735.286887243
 20
-399.052074946
 10
732.7748414672
 20
-406.3845245895
 10
730.0429927181
 20
-413.7117332719
 10
727.0965412249
 20
-421.0197532353
 10
723.9410957255
 20
-428.294673248
 10
720.5826627898
 20
-435.5226450866
 10
717.0276353858
 20
-442.6899098957
 10
713.2827807101
 20
-449.7828243793
 10
709.3552273065
 20
-456.7878867718
 10
705.2524514961
 20
-463.6917625386
 10
700.9822631459
 20
-470.4813097599
 10
696.5527908021
 20
-477.1436041465
 10
691.972466217
 20
-483.6659636426
 10
687.2500082989
 20
-490.035972566
 10
682.3944065147
 20
-496.2415052428
 10
677.4149037785
 20
-502.2707490888
 10
672.3209788567
 20
-508.1122270956
 10
667.122328325
 20
-513.7548196779
 10
661.82884811
 20
-519.18778584
 10
656.4506146523
 20
-524.400783622
 10
650.9978657249
 20
-529.3838897863
 10
645.4809809453
 20
-534.1276187072
 10
639.9104620172
 20
-538.6229404269
 10
634.2969127401
 20
-542.8612978452
 10
628.651018824
 20
-546.8346230078
 10
622.9835275489
 20
-550.5353524644
 10
617.3052273065
 20
-553.9564416661
 10
611.6269270642
 20
-557.0913783753
 10
605.959435789
 20
-559.9341950616
 10
600.3135418729
 20
-562.4794802621
 10
594.6999925958
 20
-564.7223888815
 10
589.1294736678
 20
-566.658651416
 10
583.6125888881
 20
-568.2845820796
 10
578.1598399607
 20
-569.5970858211
 10
572.781606503
 20
-570.5936642148
 10
567.488126288
 20
-571.2724202173
 10
562.2894757563
 20
-571.6320617778
 10
557.1955508345
 20
-571.6719042982
 10
552.2160480983
 20
-571.3918719361
 10
547.3604463141
 20
-570.7924977488
 10
542.637988396
 20
-569.8749226794
 10
538.0576638109
 20
-568.640893384
 10
533.6281914671
 20
-567.0927589075
 10
529.3580031169
 20
-565.233466212
 10
525.2552273065
 20
-563.0665545667
 10
521.3276739029
 20
-560.5961488112
 10
517.5828192272
 20
-557.8269515031
 10
514.0277918232
 20
-554.764233967
 10
510.6693588875
 20
-551.4138262598
 10
507.5139133881
 20
-547.7821060729
 10
504.5674618949
 20
-543.8759865921
 10
501.8356131458
 20
-539.702903338
 10
499.32356737
 20
-535.2708000115
 10
497.0361063896
 20
-530.5881133734
 10
494.9775845165
 20
-525.6637571838
 10
493.1519202642
 20
-520.5071052346
 10
491.5625888881
 20
-515.1279735058
 10
490.2126157711
 20
-509.5366014804
 10
489.1045706636
 20
-503.7436326529
 10
488.2405627924
 20
-497.7600942687
 10
487.6222368458
 20
-491.5973763332
 10
487.2507698421
 20
-485.2672099302
 10
487.1268688901
 20
-478.7816448912
  0
ARC
  5
E2
330
1F
100
AcDbEntity
  8
0
  6
Continuous
 62
     7
370
    25
100
AcDbCircle
 10
835.1432222364
 20
-357.2392858125
 30
0.0
 40
75.91213213835626
100
AcDbArc
 50
48.4133830926
 51
59.97288109
  0
ARC
  5
E3
330
1F
100
AcDbEntity
  8
0
  6
Continuous
 62
     7
370
    25
100
AcDbCircle
 10
686.1437765756
 20
-615.3148209621
 30
0.0
 40
76.08820454203446
100
AcDbArc
 50
240.0426068149
 51
252.4392447603
  0
ARC
  5
E4
330
1F
100
AcDbEntity
  8
0
  6
Continuous
 62
     7
370
    25
100
AcDbCircle
 10
826.1204639284
 20
-366.9999099276
 30
0.0
 40
89.19456166427186
100
AcDbArc
 50
24.7566741189
 51
49.1785027331
  0
ARC
  5
E5
330
1F
100
AcDbEntity
  8
0
  6
Continuous
 62
     7
370
    25
100
AcDbCircle
 10
689.8426003994
 20
-603.6458480757
 30
0.0
 40
88.32304001328322
100
AcDbArc
 50
250.8033895063
 51
274.1401636334
  0
ARC
  5
E6
330
1F
100
AcDbEntity
  8
0
  6
Continuous
 62
     7
370
    25
100
AcDbCircle
 10
874.2463094491
 20
-415.4701131396
 30
0.0
 40
82.70573301612498
100
AcDbArc
 50
28.0859576836
 51
39.1459600795
  0
ARC
  5
E7
330
1F
100
AcDbEntity
  8
0
  6
Continuous
 62
     7
370
    25
100
AcDbCircle
 10
755.9750853644
 20
-621.1963447791
 30
0.0
 40
81.72650732620512
100
AcDbArc
 50
260.8013141091
 51
271.5460856211
  0
LWPOLYLINE
  5
E8
330
1F
100
AcDbEntity
  8
0
  6
Continuous
 62
     7
370
    25
100
AcDbPolyline
 90
       77
 70
   128
 43
0.0
 10
1053.1728216337
 20
-424.3184322797
 10
1056.2726803145
 20
-426.2224847569
 10
1060.2362158053
 20
-429.0175962545
 10
1064.0119399794
 20
-432.1083326196
 10
1067.5932289337
 20
-435.4892716506
 10
1070.9737998702
 20
-439.1544820314
 10
1074.1477221189
 20
-443.0975337376
 10
1077.1094275417
 20
-447.3115093166
 10
1079.8537203009
 20
-451.7890160235
 10
1082.3757859744
 20
-456.5221987899
 10
1084.671200002
 20
-461.5027540049
 10
1086.7359354476
 20
-466.7219440823
 10
1088.5663700635
 20
-472.1706127892
 10
1090.1592926455
 20
-477.8392013091
 10
1091.5119086662
 20
-483.7177650118
 10
1092.6218451772
 20
-489.7959908988
 10
1093.487154973
 20
-496.0632156965
 10
1094.106320006
 20
-502.5084445631
 10
1094.4782540504
 20
-509.120370377
 10
1094.6023046074
 20
-515.8873935736
 10
1094.4782540504
 20
-522.7976424947
 10
1094.106320006
 20
-529.8389942157
 10
1093.487154973
 20
-536.9990958128
 10
1092.6218451772
 20
-544.265386035
 10
1091.5119086662
 20
-551.6251173401
 10
1090.1592926455
 20
-559.0653782585
 10
1088.5663700635
 20
-566.5731160443
 10
1086.7359354476
 20
-574.1351595743
 10
1084.671200002
 20
-581.7382424546
 10
1082.3757859744
 20
-589.3690262942
 10
1079.8537203009
 20
-597.0141241053
 10
1077.1094275417
 20
-604.6601237886
 10
1074.1477221189
 20
-612.2936116625
 10
1070.9737998702
 20
-619.9011959953
 10
1067.5932289337
 20
-627.4695304991
 10
1064.0119399794
 20
-634.9853377434
 10
1060.2362158053
 20
-642.4354324485
 10
1056.2726803145
 20
-649.8067446165
 10
1052.128286895
 20
-657.0863424613
 10
1047.8103062213
 20
-664.2614550946
 10
1043.3263134986
 20
-671.3194949307
 10
1038.6841751738
 20
-678.2480797694
 10
1033.8920351351
 20
-685.0350545184
 10
1028.9583004243
 20
-691.668512518
 10
1023.8916264888
 20
-698.1368164287
 10
1018.7009019961
 20
-704.4286186474
 10
1013.395233241
 20
-710.5328812152
 10
1007.9839281693
 20
-716.4388951812
 10
1002.4764800488
 20
-722.1362993901
 10
996.882550815
 20
-727.6150986589
 10
991.2119541206
 20
-732.865681312
 10
985.4746381191
 20
-737.8788360432
 10
979.6806680124
 20
-742.6457680757
 10
973.8402083927
 20
-747.1581145908
 10
967.9635054108
 20
-751.4079593995
 10
962.0608688008
 20
-755.3878468298
 10
956.1426537929
 20
-759.0907948069
 10
950.2192429473
 20
-762.5103071017
 10
944.3010279394
 20
-765.6403847277
 10
938.3983913294
 20
-768.4755364651
 10
932.5216883476
 20
-771.0107884944
 10
926.6812287279
 20
-773.241693122
 10
920.8872586211
 20
-775.1643365832
 10
915.1499426196
 20
-776.775345908
 10
909.4793459252
 20
-778.0718948387
 10
903.8854166914
 20
-779.0517087878
 10
898.377968571
 20
-779.7130688287
 10
892.9666634992
 20
-780.0548147112
 10
887.6609947441
 20
-780.0763468969
 10
882.4702702515
 20
-779.7776276109
 10
877.4035963159
 20
-779.1591809086
 10
872.4698616051
 20
-778.2220917554
 10
867.6777215664
 20
-776.9680041242
 10
863.0355832417
 20
-775.3991181109
 10
858.551590519
 20
-773.5181860747
 10
854.2336098452
 20
-771.3285078094
 10
853.1890751065
 20
-770.737977232
  0
LWPOLYLINE
  5
E9
330
1F
100
AcDbEntity
  8
0
  6
Continuous
 62
     1
370
    25
100
AcDbPolyline
 90
       75
 70
   128
 43
0.0
 10
885.5300156781
 20
-300.4605675066
 10
887.1001104352
 20
-301.8899420951
 10
890.8154033051
 20
-305.6014107158
 10
894.3274420222
 20
-309.5951380502
 10
897.6307429549
 20
-313.8648883673
 10
900.720148391
 20
-318.4039949588
 10
903.5908345907
 20
-323.2053705484
 10
906.2383193181
 20
-328.2615183583
 10
908.6584688402
 20
-333.5645438137
 10
910.8475043808
 20
-339.10616687
 10
912.8020080208
 20
-344.8777349406
 10
914.5189280347
 20
-350.8702364071
 10
915.9955836557
 20
-357.0743146897
 10
917.2296692614
 20
-363.4802828568
 10
918.2192579735
 20
-370.0781387494
 10
918.9628046669
 20
-376.8575805988
 10
919.4591483815
 20
-383.8080231113
 10
919.7075141357
 20
-390.918613996
 10
919.7075141357
 20
-398.1782509093
 10
919.4591483815
 20
-405.5755987899
 10
918.9628046669
 20
-413.0991075573
 10
918.2192579735
 20
-420.7370301455
 10
917.2296692613
 20
-428.4774408453
 10
915.9955836557
 20
-436.3082539239
 10
914.5189280347
 20
-444.2172424966
 10
912.8020080208
 20
-452.1920576163
 10
910.8475043808
 20
-460.220247556
 10
908.6584688402
 20
-468.2892772502
 10
906.2383193181
 20
-476.3865478667
 10
903.5908345907
 20
-484.4994164787
 10
900.720148391
 20
-492.615215805
 10
897.6307429549
 20
-500.7212739883
 10
894.3274420222
 20
-508.8049343809
 10
890.8154033051
 20
-516.8535753069
 10
887.1001104352
 20
-524.8546297687
 10
883.1873644014
 20
-532.7956050696
 10
879.083274492
 20
-540.6641023195
 10
874.7942487563
 20
-548.4478357937
 10
870.3269839988
 20
-556.1346521166
 10
865.6884553232
 20
-563.7125492369
 10
860.8859052413
 20
-571.1696951677
 10
855.926832365
 20
-578.4944464611
 10
850.8189796979
 20
-585.6753663872
 10
845.5703225457
 20
-592.7012427921
 10
840.1890560633
 20
-599.5611056037
 10
834.6835824597
 20
-606.2442439607
 10
829.0624978783
 20
-612.7402229358
 10
823.3345789754
 20
-619.0388998289
 10
817.5087692165
 20
-625.1304400039
 10
811.5941649119
 20
-631.0053322437
 10
805.6000010142
 20
-636.6544036016
 10
799.5356366987
 20
-642.0688337232
 10
793.4105407504
 20
-647.2401686187
 10
787.2342767795
 20
-652.1603338624
 10
781.0164882891
 20
-656.8216472004
 10
774.7668836178
 20
-661.2168305452
 10
768.4952207814
 20
-665.3390213399
 10
762.211292237
 20
-669.1817832727
 10
755.924909593
 20
-672.7391163272
 10
749.6458882897
 20
-676.0054661499
 10
743.3840322735
 20
-678.9757327235
 10
737.1491186892
 20
-681.6452783292
 10
730.9508826142
 20
-684.0099347886
 10
724.7990018585
 20
-686.0660099711
 10
718.7030818536
 20
-687.8102935595
 10
712.6726406548
 20
-689.2400620621
 10
706.7170940803
 20
-690.3530830649
 10
700.8457410091
 20
-691.147618718
 10
695.067748862
 20
-691.6224284481
 10
689.3921392879
 20
-691.7767708962
 10
683.8277740775
 20
-691.610405075
 10
678.3833413263
 20
-691.1235907449
 10
673.06734187
 20
-690.3170880086
 10
667.8880760106
 20
-689.1921561245
 10
663.186676966
 20
-687.8571289481
  0
LWPOLYLINE
  5
EA
330
1F
100
AcDbEntity
  8
0
  6
Continuous
 62
     1
370
    25
100
AcDbPolyline
 90
       33
 70
   128
 43
0.0
 10
630.8533650063
 20
-545.3189413393
 10
631.2623376044
 20
-541.0820650636
 10
632.1263454756
 20
-534.1009644251
 10
633.2343905831
 20
-527.0286739476
 10
634.5843637001
 20
-519.878656138
 10
636.1736950762
 20
-512.6645214616
 10
637.9993593285
 20
-505.4000024338
 10
640.0578812016
 20
-498.0989274794
 10
642.345342182
 20
-490.7751946096
 10
644.8573879578
 20
-483.4427449661
 10
647.5892367069
 20
-476.1155362836
 10
650.5356882001
 20
-468.8075163203
 10
653.6911336995
 20
-461.5325963075
 10
657.0495666352
 20
-454.304624469
 10
660.6045940392
 20
-447.1373596599
 10
664.3494487149
 20
-440.0444451762
 10
668.2770021185
 20
-433.0393827837
 10
672.3797779289
 20
-426.1355070169
 10
676.6499662791
 20
-419.3459597957
 10
681.0794386229
 20
-412.683665409
 10
685.659763208
 20
-406.161305913
 10
690.3822211261
 20
-399.7912969895
 10
695.2378229103
 20
-393.5857643127
 10
700.2173256465
 20
-387.5565204668
 10
705.3112505683
 20
-381.7150424599
 10
710.5099011
 20
-376.0724498776
 10
715.803381315
 20
-370.6394837155
 10
721.1816147727
 20
-365.4264859335
 10
726.6343637001
 20
-360.4433797692
 10
732.1512484797
 20
-355.6996508484
 10
737.7217674078
 20
-351.2043291286
 10
743.3353166849
 20
-346.9659717103
 10
746.7788644187
 20
-344.5083282162
  0
LWPOLYLINE
  5
EB
330
1F
100
AcDbEntity
  8
0
  6
Continuous
 62
     1
370
    25
100
AcDbPolyline
 90
       62
 70
   128
 43
0.0
 10
907.1175458806
 20
-329.6483029246
 10
909.0104291455
 20
-333.8577186842
 10
911.1986378765
 20
-339.3972486419
 10
913.1524032907
 20
-345.1666367625
 10
914.8686748153
 20
-351.1568748312
 10
916.3447726961
 20
-357.3586098026
 10
917.5783921815
 20
-363.7621584035
 10
918.5676071211
 20
-370.3575222531
 10
919.3108729731
 20
-377.1344034735
 10
919.8070292163
 20
-384.0822207692
 10
920.0553011614
 20
-391.1901259483
 10
920.0553011614
 20
-398.4470208605
 10
919.8070292163
 20
-405.841574726
 10
919.3108729731
 20
-413.3622418266
 10
918.5676071211
 20
-420.9972795334
 10
917.5783921815
 20
-428.7347666414
 10
916.3447726961
 20
-436.562621983
 10
914.8686748153
 20
-444.4686232912
 10
913.1524032907
 20
-452.4404262835
 10
911.1986378765
 20
-460.4655839359
 10
909.0104291455
 20
-468.5315659173
 10
906.5911937259
 20
-476.6257781543
 10
903.9447089666
 20
-484.7355824955
 10
901.0751070395
 20
-492.8483164439
 10
897.9868684872
 20
-500.9513129286
 10
894.6848152277
 20
-509.0319200824
 10
891.1741030252
 20
-517.0775209965
 10
887.4602134399
 20
-525.0755534202
 10
883.5489452698
 20
-533.0135293752
 10
879.4464054956
 20
-540.8790546544
 10
875.1589997463
 20
-548.6598481737
 10
870.693422297
 20
-556.3437611477
 10
866.0566456168
 20
-563.9187960585
 10
861.255909482
 20
-571.3731253882
 10
856.2987096722
 20
-578.6951100864
 10
851.1927862665
 20
-585.8733177433
 10
845.9461115583
 20
-592.8965404396
 10
840.5668776071
 20
-599.7538122469
 10
835.0634834483
 20
-606.4344263492
 10
829.4445219786
 20
-612.9279517607
 10
823.7187665392
 20
-619.2242496121
 10
817.8951572177
 20
-625.313488982
 10
811.9827868886
 20
-631.1861622457
 10
805.9908870165
 20
-636.8330999212
 10
799.9288132416
 20
-642.2454849856
 10
793.8060307726
 20
-647.4148666421
 10
787.6320996074
 20
-652.3331735149
 10
781.4166596067
 20
-656.9927262516
 10
775.1694154422
 20
-661.3862495138
 10
768.9001214442
 20
-665.5068833364
 10
762.6185663709
 20
-669.3481938389
 10
756.334558125
 20
-672.9041832709
 10
750.0579084393
 20
-676.1692993771
 10
743.7984175573
 20
-679.1384440662
 10
737.565858931
 20
-681.8069813712
 10
731.3699639607
 20
-684.170744688
 10
725.220406801
 20
-686.2260432807
 10
719.1267892554
 20
-687.9696680445
 10
713.0986257843
 20
-689.3988965163
 10
707.1453286495
 20
-690.5114971257
 10
701.2761932176
 20
-691.3057326786
 10
696.2192253893
 20
-691.7384019661
  0
LWPOLYLINE
  5
EC
330
1F
100
AcDbEntity
  8
0
  6
Continuous
 62
     1
370
    25
100
AcDbPolyline
 90
       61
 70
   128
 43
0.0
 10
947.2128036917
 20
-376.5326120425
 10
948.5879944723
 20
-379.1965432294
 10
950.8843838629
 20
-384.1792147725
 10
952.9499966519
 20
-389.4006225783
 10
954.7812090527
 20
-394.8516065232
 10
956.3748084964
 20
-400.5226037291
 10
957.727999268
 20
-406.4036653399
 10
958.8384074112
 20
-412.4844739751
 10
959.7040848928
 20
-418.7543618301
 10
960.3235130202
 20
-425.2023293912
 10
960.6956051061
 20
-431.8170647321
 10
960.8197083745
 20
-438.5869633594
 10
960.6956051061
 20
-445.5001485704
 10
960.3235130202
 20
-452.5444922892
 10
959.7040848928
 20
-459.7076363432
 10
958.8384074112
 20
-466.9770141437
 10
957.727999268
 20
-474.3398727319
 10
956.3748084964
 20
-481.7832951518
 10
954.7812090527
 20
-489.2942231114
 10
952.9499966519
 20
-496.8594798906
 10
950.8843838629
 20
-504.4657934585
 10
948.5879944723
 20
-512.0998197563
 10
946.0648571274
 20
-519.748166108
 10
943.3193982686
 20
-527.397414715
 10
940.3564343635
 20
-535.034146196
 10
937.1811634577
 20
-542.6449631292
 10
933.7991560554
 20
-550.2165135554
 10
930.2163453467
 20
-557.7355144023
 10
926.439016799
 20
-565.1887747875
 10
922.4737971301
 20
-572.5632191596
 10
918.3276426829
 20
-579.8459102373
 10
914.0078272209
 20
-587.0240717059
 10
909.5219291685
 20
-594.0851106309
 10
904.8778183151
 20
-601.0166395507
 10
900.0836420093
 20
-607.8064982083
 10
895.1478108653
 20
-614.4427748843
 10
890.0789840083
 20
-620.9138272944
 10
884.8860538828
 20
-627.2083030139
 10
879.578130653
 20
-633.3151593933
 10
874.1645262197
 20
-639.2236829316
 10
868.6547378848
 20
-644.9235080708
 10
863.0584316892
 20
-650.4046353806
 10
857.3854254556
 20
-655.6574491013
 10
851.6456715646
 20
-660.6727340127
 10
845.849239495
 20
-665.4416916009
 10
840.0062981583
 20
-669.9559554938
 10
834.1270980589
 20
-674.2076061385
 10
828.2219533117
 20
-678.1891846951
 10
822.3012235471
 20
-681.8937061218
 10
816.375295737
 20
-685.3146714293
 10
810.4545659724
 20
-688.4460790819
 10
804.5494212252
 20
-691.2824355266
 10
798.6702211258
 20
-693.8187648304
 10
792.8272797891
 20
-696.0506174099
 10
787.0308477195
 20
-697.9740778371
 10
781.2910938286
 20
-699.5857717089
 10
775.618087595
 20
-700.8828715667
 10
770.0217813993
 20
-701.8631018565
 10
764.5119930644
 20
-702.5247429212
 10
759.0983886312
 20
-702.8666340178
 10
758.1801490718
 20
-702.8930992666
  0
LWPOLYLINE
  5
ED
330
1F
100
AcDbEntity
  8
0
  6
Continuous
 62
     1
370
    25
100
AcDbPolyline
 90
       33
 70
   128
 43
0.0
 10
632.1508958594
 20
-544.4055051193
 10
632.4309530715
 20
-541.6073669129
 10
633.2939638417
 20
-534.6343227548
 10
634.4007302191
 20
-527.5701939945
 10
635.749145411
 20
-520.4284276027
 10
637.3366426325
 20
-513.2226183377
 10
639.1601999925
 20
-505.9664828668
 10
641.2163462457
 20
-498.6738336565
 10
643.501167401
 20
-491.3585526789
 10
646.0103141715
 20
-484.0345649871
 10
648.7390102536
 20
-476.7158122081
 10
651.6820614193
 20
-469.4162260036
 10
654.8338654034
 20
-462.149701551
 10
658.1884225679
 20
-454.9300710925
 10
661.7393473225
 20
-447.771077605
 10
665.4798802802
 20
-440.6863486395
 10
669.4029011238
 20
-433.6893703803
 10
673.5009421603
 20
-426.7934619731
 10
677.7662025357
 20
-420.0117501716
 10
682.1905630842
 20
-413.3571443497
 10
686.7656017843
 20
-406.8423119277
 10
691.4826097897
 20
-400.4796542593
 10
696.3326080075
 20
-394.2812830253
 10
701.3063641906
 20
-388.2589971774
 10
706.3944105112
 20
-382.424260479
 10
711.5870615841
 20
-376.7881796831
 10
716.8744329028
 20
-371.3614833899
 10
722.2464596556
 20
-366.154501624
 10
727.692915884
 20
-361.1771461714
 10
733.2034339492
 20
-356.4388917109
 10
738.7675242668
 20
-351.9487577793
 10
744.3745952747
 20
-347.7152916017
 10
746.6367191777
 20
-346.0887543528
  0
LWPOLYLINE
  5
EE
330
1F
100
AcDbEntity
  8
0
  6
Continuous
 62
     1
370
    25
100
AcDbPolyline
 90
       68
 70
   128
 43
0.0
 10
936.4161511017
 20
-360.8505891758
 10
937.5389789335
 20
-362.1241995403
 10
940.7129011822
 20
-366.0672512465
 10
943.674606605
 20
-370.2812268255
 10
946.4188993642
 20
-374.7587335324
 10
948.9409650377
 20
-379.4919162988
 10
951.2363790653
 20
-384.4724715138
 10
953.3011145109
 20
-389.6916615912
 10
955.1315491268
 20
-395.1403302981
 10
956.7244717088
 20
-400.808918818
 10
958.0770877295
 20
-406.6874825207
 10
959.1870242405
 20
-412.7657084077
 10
960.0523340363
 20
-419.0329332054
 10
960.6714990693
 20
-425.478162072
 10
961.0434331137
 20
-432.0900878859
 10
961.1674836707
 20
-438.8571110825
 10
961.0434331137
 20
-445.7673600036
 10
960.6714990693
 20
-452.8087117246
 10
960.0523340363
 20
-459.9688133218
 10
959.1870242405
 20
-467.235103544
 10
958.0770877295
 20
-474.594834849
 10
956.7244717088
 20
-482.0350957674
 10
955.1315491268
 20
-489.5428335532
 10
953.3011145109
 20
-497.1048770832
 10
951.2363790653
 20
-504.7079599635
 10
948.9409650377
 20
-512.3387438031
 10
946.4188993642
 20
-519.9838416142
 10
943.674606605
 20
-527.6298412975
 10
940.7129011822
 20
-535.2633291714
 10
937.5389789335
 20
-542.8709135042
 10
934.1584079969
 20
-550.439248008
 10
930.5771190427
 20
-557.9550552523
 10
926.8013948686
 20
-565.4051499574
 10
922.8378593778
 20
-572.7764621254
 10
918.6934659583
 20
-580.0560599703
 10
914.3754852846
 20
-587.2311726035
 10
909.8914925619
 20
-594.2892124396
 10
905.2493542371
 20
-601.2177972783
 10
900.4572141984
 20
-608.0047720273
 10
895.5234794876
 20
-614.6382300269
 10
890.4568055521
 20
-621.1065339376
 10
885.2660810594
 20
-627.3983361563
 10
879.9604123043
 20
-633.5025987241
 10
874.5491072326
 20
-639.4086126902
 10
869.0416591121
 20
-645.1060168991
 10
863.4477298783
 20
-650.5848161678
 10
857.7771331839
 20
-655.8353988209
 10
852.0398171824
 20
-660.8485535521
 10
846.2458470757
 20
-665.6154855846
 10
840.405387456
 20
-670.1278320997
 10
834.5286844741
 20
-674.3776769084
 10
828.6260478641
 20
-678.3575643387
 10
822.7078328562
 20
-682.0605123158
 10
816.7844220106
 20
-685.4800246106
 10
810.8662070027
 20
-688.6101022366
 10
804.9635703927
 20
-691.445253974
 10
799.0868674109
 20
-693.9805060033
 10
793.2464077912
 20
-696.2114106309
 10
787.4524376844
 20
-698.1340540921
 10
781.7151216829
 20
-699.745063417
 10
776.0445249885
 20
-701.0416123476
 10
770.4505957547
 20
-702.0214262967
 10
764.9431476343
 20
-702.6827863376
 10
759.5318425625
 20
-703.0245322201
 10
754.2261738074
 20
-703.0460644058
 10
749.0354493148
 20
-702.7473451199
 10
743.9687753792
 20
-702.1288984175
 10
739.8394653638
 20
-701.3682922596
  0
ENDSEC
  0
SECTION
  2
OBJECTS
  0
DICTIONARY
  5
C
330
0
100
AcDbDictionary
281
     1
  3
ACAD_GROUP
350
D
  3
ACAD_LAYOUT
350
1A
  3
ACAD_MLINESTYLE
350
17
  3
ACAD_PLOTSETTINGS
350
19
  3
ACAD_PLOTSTYLENAME
350
E
  3
ACAD_SCALELIST
350
47
  3
DWGPROPS
350
EF
  0
DICTIONARY
  5
D
102
{ACAD_REACTORS
330
C
102
}
330
C
100
AcDbDictionary
281
     1
  0
DICTIONARY
  5
1A
102
{ACAD_REACTORS
330
C
102
}
330
C
100
AcDbDictionary
281
     1
  3
Layout1
350
1E
  3
Layout2
350
26
  3
Model
350
22
  0
DICTIONARY
  5
17
102
{ACAD_REACTORS
330
C
102
}
330
C
100
AcDbDictionary
281
     1
  3
Standard
350
18
  0
DICTIONARY
  5
19
102
{ACAD_REACTORS
330
C
102
}
330
C
100
AcDbDictionary
281
     1
  0
ACDBDICTIONARYWDFLT
  5
E
102
{ACAD_REACTORS
330
C
102
}
330
C
100
AcDbDictionary
281
     1
  3
Normal
350
F
100
AcDbDictionaryWithDefault
340
F
  0
DICTIONARY
  5
47
102
{ACAD_REACTORS
330
C
102
}
330
C
100
AcDbDictionary
281
     1
  3
A0
350
48
  3
A1
350
49
  3
A2
350
4A
  3
A3
350
4B
  3
A4
350
4C
  3
A5
350
4D
  3
A6
350
4E
  3
A7
350
4F
  3
A8
350
50
  3
A9
350
51
  3
B0
350
52
  3
B1
350
53
  3
B2
350
54
  3
B3
350
55
  3
B4
350
56
  3
B5
350
57
  3
B6
350
58
  3
B7
350
59
  3
B8
350
5A
  3
B9
350
5B
  3
C0
350
5C
  3
C1
350
5D
  3
C2
350
5E
  3
C3
350
5F
  3
C4
350
60
  3
C5
350
61
  3
C6
350
62
  3
C7
350
63
  3
C8
350
64
  3
C9
350
65
  3
D0
350
66
  3
D1
350
67
  3
D2
350
68
  0
XRECORD
  5
EF
102
{ACAD_REACTORS
330
C
102
}
330
C
100
AcDbXrecord
280
     1
  1
DWGPROPS COOKIE
  2

  3

  4

  6

  7

  8
b.kav
  9

300
=
301
=
302
=
303
=
304
=
305
=
306
=
307
=
308
=
309
=
 40
0.0
 41
2460731.53108434
 42
2460731.531084525
  1

 90
        0
  0
LAYOUT
  5
1E
102
{ACAD_REACTORS
330
1A
102
}
330
1A
100
AcDbPlotSettings
  1

  2
none_device
  4

  6

 40
0.0
 41
0.0
 42
0.0
 43
0.0
 44
0.0
 45
0.0
 46
0.0
 47
0.0
 48
0.0
 49
0.0
140
0.0
141
0.0
142
1.0
143
1.0
 70
   688
 72
     1
 73
     0
 74
     5
  7

 75
    16
147
1.0
148
0.0
149
0.0
100
AcDbLayout
  1
Layout1
 70
     1
 71
     1
 10
0.0
 20
0.0
 11
420.0
 21
297.0
 12
0.0
 22
0.0
 32
0.0
 14
1.0000000000E+20
 24
1.0000000000E+20
 34
1.0000000000E+20
 15
-1.0000000000E+20
 25
-1.0000000000E+20
 35
-1.0000000000E+20
146
0.0
 13
0.0
 23
0.0
 33
0.0
 16
1.0
 26
0.0
 36
0.0
 17
0.0
 27
1.0
 37
0.0
 76
     0
330
1B
  0
LAYOUT
  5
26
102
{ACAD_REACTORS
330
1A
102
}
330
1A
100
AcDbPlotSettings
  1

  2
none_device
  4

  6

 40
0.0
 41
0.0
 42
0.0
 43
0.0
 44
0.0
 45
0.0
 46
0.0
 47
0.0
 48
0.0
 49
0.0
140
0.0
141
0.0
142
1.0
143
1.0
 70
   688
 72
     1
 73
     0
 74
     5
  7

 75
    16
147
1.0
148
0.0
149
0.0
100
AcDbLayout
  1
Layout2
 70
     1
 71
     2
 10
0.0
 20
0.0
 11
0.0
 21
0.0
 12
0.0
 22
0.0
 32
0.0
 14
0.0
 24
0.0
 34
0.0
 15
0.0
 25
0.0
 35
0.0
146
0.0
 13
0.0
 23
0.0
 33
0.0
 16
1.0
 26
0.0
 36
0.0
 17
0.0
 27
1.0
 37
0.0
 76
     0
330
23
  0
LAYOUT
  5
22
102
{ACAD_REACTORS
330
1A
102
}
330
1A
100
AcDbPlotSettings
  1

  2
none_device
  4
Letter_(8.50_x_11.00_Inches)
  6

 40
6.35
 41
6.35
 42
6.35000508
 43
6.35000508
 44
215.9
 45
279.4
 46
0.0
 47
0.0
 48
0.0
 49
0.0
140
0.0
141
0.0
142
1.0
143
1.0
 70
  1712
 72
     1
 73
     0
 74
     0
  7

 75
     0
147
1.0
148
0.0
149
0.0
100
AcDbLayout
  1
Model
 70
     1
 71
     0
 10
0.0
 20
0.0
 11
279.4
 21
215.9
 12
0.0
 22
0.0
 32
0.0
 14
0.0
 24
0.0
 34
0.0
 15
279.4
 25
215.9
 35
0.0
146
0.0
 13
0.0
 23
0.0
 33
0.0
 16
1.0
 26
0.0
 36
0.0
 17
0.0
 27
1.0
 37
0.0
 76
     0
330
1F
331
29
  0
MLINESTYLE
  5
18
102
{ACAD_REACTORS
330
17
102
}
330
17
100
AcDbMlineStyle
  2
Standard
 70
     0
  3

 62
   256
 51
90.0
 52
90.0
 71
     2
 49
0.5
 62
   256
  6
BYLAYER
 49
-0.5
 62
   256
  6
BYLAYER
  0
ACDBPLACEHOLDER
  5
F
102
{ACAD_REACTORS
330
E
102
}
330
E
  0
SCALE
  5
48
102
{ACAD_REACTORS
330
47
102
}
330
47
100
AcDbScale
 70
     0
300
1:1
140
1.0
141
1.0
290
     1
  0
SCALE
  5
49
102
{ACAD_REACTORS
330
47
102
}
330
47
100
AcDbScale
 70
     0
300
1:2
140
1.0
141
2.0
290
     0
  0
SCALE
  5
4A
102
{ACAD_REACTORS
330
47
102
}
330
47
100
AcDbScale
 70
     0
300
1:4
140
1.0
141
4.0
290
     0
  0
SCALE
  5
4B
102
{ACAD_REACTORS
330
47
102
}
330
47
100
AcDbScale
 70
     0
300
1:5
140
1.0
141
5.0
290
     0
  0
SCALE
  5
4C
102
{ACAD_REACTORS
330
47
102
}
330
47
100
AcDbScale
 70
     0
300
1:8
140
1.0
141
8.0
290
     0
  0
SCALE
  5
4D
102
{ACAD_REACTORS
330
47
102
}
330
47
100
AcDbScale
 70
     0
300
1:10
140
1.0
141
10.0
290
     0
  0
SCALE
  5
4E
102
{ACAD_REACTORS
330
47
102
}
330
47
100
AcDbScale
 70
     0
300
1:16
140
1.0
141
16.0
290
     0
  0
SCALE
  5
4F
102
{ACAD_REACTORS
330
47
102
}
330
47
100
AcDbScale
 70
     0
300
1:20
140
1.0
141
20.0
290
     0
  0
SCALE
  5
50
102
{ACAD_REACTORS
330
47
102
}
330
47
100
AcDbScale
 70
     0
300
1:30
140
1.0
141
30.0
290
     0
  0
SCALE
  5
51
102
{ACAD_REACTORS
330
47
102
}
330
47
100
AcDbScale
 70
     0
300
1:40
140
1.0
141
40.0
290
     0
  0
SCALE
  5
52
102
{ACAD_REACTORS
330
47
102
}
330
47
100
AcDbScale
 70
     0
300
1:50
140
1.0
141
50.0
290
     0
  0
SCALE
  5
53
102
{ACAD_REACTORS
330
47
102
}
330
47
100
AcDbScale
 70
     0
300
1:100
140
1.0
141
100.0
290
     0
  0
SCALE
  5
54
102
{ACAD_REACTORS
330
47
102
}
330
47
100
AcDbScale
 70
     0
300
2:1
140
2.0
141
1.0
290
     0
  0
SCALE
  5
55
102
{ACAD_REACTORS
330
47
102
}
330
47
100
AcDbScale
 70
     0
300
4:1
140
4.0
141
1.0
290
     0
  0
SCALE
  5
56
102
{ACAD_REACTORS
330
47
102
}
330
47
100
AcDbScale
 70
     0
300
8:1
140
8.0
141
1.0
290
     0
  0
SCALE
  5
57
102
{ACAD_REACTORS
330
47
102
}
330
47
100
AcDbScale
 70
     0
300
10:1
140
10.0
141
1.0
290
     0
  0
SCALE
  5
58
102
{ACAD_REACTORS
330
47
102
}
330
47
100
AcDbScale
 70
     0
300
100:1
140
100.0
141
1.0
290
     0
  0
SCALE
  5
59
102
{ACAD_REACTORS
330
47
102
}
330
47
100
AcDbScale
 70
     0
300
1/128" = 1'-0"
140
0.0078125
141
12.0
290
     0
  0
SCALE
  5
5A
102
{ACAD_REACTORS
330
47
102
}
330
47
100
AcDbScale
 70
     0
300
1/64" = 1'-0"
140
0.015625
141
12.0
290
     0
  0
SCALE
  5
5B
102
{ACAD_REACTORS
330
47
102
}
330
47
100
AcDbScale
 70
     0
300
1/32" = 1'-0"
140
0.03125
141
12.0
290
     0
  0
SCALE
  5
5C
102
{ACAD_REACTORS
330
47
102
}
330
47
100
AcDbScale
 70
     0
300
1/16" = 1'-0"
140
0.0625
141
12.0
290
     0
  0
SCALE
  5
5D
102
{ACAD_REACTORS
330
47
102
}
330
47
100
AcDbScale
 70
     0
300
3/32" = 1'-0"
140
0.09375
141
12.0
290
     0
  0
SCALE
  5
5E
102
{ACAD_REACTORS
330
47
102
}
330
47
100
AcDbScale
 70
     0
300
1/8" = 1'-0"
140
0.125
141
12.0
290
     0
  0
SCALE
  5
5F
102
{ACAD_REACTORS
330
47
102
}
330
47
100
AcDbScale
 70
     0
300
3/16" = 1'-0"
140
0.1875
141
12.0
290
     0
  0
SCALE
  5
60
102
{ACAD_REACTORS
330
47
102
}
330
47
100
AcDbScale
 70
     0
300
1/4" = 1'-0"
140
0.25
141
12.0
290
     0
  0
SCALE
  5
61
102
{ACAD_REACTORS
330
47
102
}
330
47
100
AcDbScale
 70
     0
300
3/8" = 1'-0"
140
0.375
141
12.0
290
     0
  0
SCALE
  5
62
102
{ACAD_REACTORS
330
47
102
}
330
47
100
AcDbScale
 70
     0
300
1/2" = 1'-0"
140
0.5
141
12.0
290
     0
  0
SCALE
  5
63
102
{ACAD_REACTORS
330
47
102
}
330
47
100
AcDbScale
 70
     0
300
3/4" = 1'-0"
140
0.75
141
12.0
290
     0
  0
SCALE
  5
64
102
{ACAD_REACTORS
330
47
102
}
330
47
100
AcDbScale
 70
     0
300
1" = 1'-0"
140
1.0
141
12.0
290
     0
  0
SCALE
  5
65
102
{ACAD_REACTORS
330
47
102
}
330
47
100
AcDbScale
 70
     0
300
1-1/2" = 1'-0"
140
1.5
141
12.0
290
     0
  0
SCALE
  5
66
102
{ACAD_REACTORS
330
47
102
}
330
47
100
AcDbScale
 70
     0
300
3" = 1'-0"
140
3.0
141
12.0
290
     0
  0
SCALE
  5
67
102
{ACAD_REACTORS
330
47
102
}
330
47
100
AcDbScale
 70
     0
300
6" = 1'-0"
140
6.0
141
12.0
290
     0
  0
SCALE
  5
68
102
{ACAD_REACTORS
330
47
102
}
330
47
100
AcDbScale
 70
     0
300
1'-0" = 1'-0"
140
12.0
141
12.0
290
     0
  0
ENDSEC
  0
EOF
